Kullanıcı Tag Listesi

Lambaya Püf De G||--7-6-7---7-6-7---7-6-7---7-6-7---|--7-6-7---7-6-7---7-6-7-9-10-9-7-6-| D||--------7-------7-------7-------7-|--------7-------7------------------| A||----------------------------------|-----------------------------------| E||----------------------------------|-----------------------------------| --7-6-7---7-6-7---7-6-7---7-6-7---|--7-6-7---7-6-7---7-6-7-9-10-9-7-6-| --------7-------7-------7-------7-|--------7-------7------------------|

Bu konu 850 kez görüntülendi 0 yorum aldı ...
Kurban - Lambaya Püf De 850 Reviews

    Konuyu değerlendir: Kurban - Lambaya Püf De

    5 üzerinden | Toplam: 0 kişi oyladı ve 850 kez incelendi.

  1. #1
    ŞiMaL - ait Kullanıcı Resmi (Avatar)
    Üyelik tarihi
    10.12.09
    Mesajlar
    21.542
    Konular
    11199
    Beğendikleri
    0
    Beğenileri
    9
    Bahsedildi
    0 Mesaj
    Etiketlenmiş
    0 Konu
    Tecrübe Puanı
    100
    @ŞiMaL

    Yeni Kurban - Lambaya Püf De

    Lambaya Püf De G||--7-6-7---7-6-7---7-6-7---7-6-7---|--7-6-7---7-6-7---7-6-7-9-10-9-7-6-|
    D||--------7-------7-------7-------7-|--------7-------7------------------|
    A||----------------------------------|-----------------------------------|
    E||----------------------------------|-----------------------------------|



    --7-6-7---7-6-7---7-6-7---7-6-7---|--7-6-7---7-6-7---7-6-7-9-10-9-7-6-|
    --------7-------7-------7-------7-|--------7-------7------------------|
    ----------------------------------|-----------------------------------|
    ----------------------------------|-----------------------------------|

    Distortion Gitar:
    -----------------------|-----------------------|-----------------------|
    -----------------------|-----------------------|-----------------------|
    ----------7-7--7-7--7--|----------7-7--7-7--7--|----------7-7--7-7--7--|
    ----------7-7--7-7--7--|----------7-7--7-7--7--|----------7-7--7-7--7--|
    ----------5-5--5-5--5--|----------5-5--5-5--5--|----------5-5--5-5--5--|
    -----------------------|-----------------------|-----------------------|


    Solo:
    --------------------|-----------------------------|
    --------------------|-----------------------------|
    ----------------14--|--13----13p10-10--7------14--|
    --------------------|-----------------------------|
    --------------------|-----------------------------|
    --------------------|-----------------------------|



    -----------------------------|-------------------------|
    -----------------------------|-------------------------|
    --13----13p10-10--7------10--|--9----9p7-6--7------10--|
    -----------------------------|-------------------------|
    -----------------------------|-------------------------|
    -----------------------------|-------------------------|



    -------------------------|-----------------------------|
    -------------------------|-----------------------------|
    --9----9p7-6--7------14--|--13----13p10-10--7------14--|
    -------------------------|-----------------------------|
    -------------------------|-----------------------------|
    -------------------------|-----------------------------|



    -----------------------------|-------------------------|-----------------------|
    -----------------------------|-------------------------|-----------------------|
    --13----13p10-10--7------10--|--9----9p7-6--7------10--|--9----9p7-6--7--------|
    -----------------------------|-------------------------|-----------------------|
    -----------------------------|-------------------------|-----------------------|
    -----------------------------|-------------------------|-----------------------|


    Konu Bilgileri       Kaynak: www.azeribalasi.com

          Konu: Kurban - Lambaya Püf De

          Kategori: Müzik ve Müzik Aletleri

          Konuyu Baslatan: ŞiMaL

          Cevaplar: 0

          Görüntüleme: 850


Etiketler

Yer imleri

Yer imleri

Yetkileriniz

  • Konu Acma Yetkiniz Yok
  • Cevap Yazma Yetkiniz Yok
  • Eklenti Yükleme Yetkiniz Yok
  • Mesajinizi Degistirme Yetkiniz Yok
  •  

Giriş

Facebook Baglan Giriş