Kullanıcı Tag Listesi

intro |--------------------------------------------- _ |---7-5---5-----5---------7-5---5-----5-5~~--- | |-4-----7---6-7---6-4---4-----7---6-7--------- | |--------------------------------------------- | |--------------------------------------------- | |--------------------------------------------- | > (2 Kere) | |--------------------------------------------- |

Bu konu 1291 kez görüntülendi 0 yorum aldı ...
Duman - Bu Akşam ( Tab ) 1291 Reviews

    Konuyu değerlendir: Duman - Bu Akşam ( Tab )

    5 üzerinden | Toplam: 0 kişi oyladı ve 1291 kez incelendi.

  1. #1
    ŞiMaL - ait Kullanıcı Resmi (Avatar)
    Üyelik tarihi
    10.12.09
    Mesajlar
    21.542
    Konular
    11199
    Beğendikleri
    0
    Beğenileri
    9
    Bahsedildi
    0 Mesaj
    Etiketlenmiş
    0 Konu
    Tecrübe Puanı
    100
    @ŞiMaL

    Yeni Duman - Bu Akşam ( Tab )

    intro
    |--------------------------------------------- _
    |---7-5---5-----5---------7-5---5-----5-5~~--- |
    |-4-----7---6-7---6-4---4-----7---6-7--------- |
    |--------------------------------------------- |
    |--------------------------------------------- |
    |--------------------------------------------- |
    > (2 Kere)
    |
    |--------------------------------------------- |
    |---7-5---5-----5----------------------------- |
    |-4-----7---6-7---6-4---4-7-6-4-7-6-4-4------- |
    |--------------------------------------------- |
    |--------------------------------------------- |
    |--------------------------------------------- _|

    solo
    |---------------------------------------------
    |---7-5---5-----5---------7-5---5-----5-5~~---
    |-4-----7---6-7---6-4---4-----7---6-7---------
    |---------------------------------------------
    |---------------------------------------------
    |---------------------------------------------


    |---------------------------------------------
    |---7-5---5-----5-----------------------------
    |-4-----7---6-7---6-4---4-7-6-4-7-6-4-4-------
    |---------------------------------------------
    |---------------------------------------------
    |---------------------------------------------


    |---5-4-5-4-5-4-5-4-5-4--5h7-7-7~~--------------
    |---------------------------------------------
    |-4-------------------------------------------
    |---------------------------------------------
    |---------------------------------------------
    |---------------------------------------------


    |---5-4-5-4-5-4--5h10--10h9--9h7-7-7~~--------
    |---------------------------------------------
    |-4-------------------------------------------
    |---------------------------------------------
    |---------------------------------------------
    |---------------------------------------------


    |---5-4-5-4-5-4-5-4-5-4--5p4------------------
    |----------------------------7-7--------------
    |-4-------------------------------------------
    |---------------------------------------------
    |---------------------------------------------
    |---------------------------------------------


    |---------------------------------------------
    |---7-5-----5---------------------------------
    |-4-----7-7---6-4-4~~-------------------------
    |---------------------------------------------
    |---------------------------------------------
    |---------------------------------------------


    Konu Bilgileri       Kaynak: www.azeribalasi.com

          Konu: Duman - Bu Akşam ( Tab )

          Kategori: Müzik ve Müzik Aletleri

          Konuyu Baslatan: ŞiMaL

          Cevaplar: 0

          Görüntüleme: 1291


Etiketler

Yer imleri

Yer imleri

Yetkileriniz

  • Konu Acma Yetkiniz Yok
  • Cevap Yazma Yetkiniz Yok
  • Eklenti Yükleme Yetkiniz Yok
  • Mesajinizi Degistirme Yetkiniz Yok
  •  

Giriş

Facebook Baglan Giriş