Düş Sokağı Sakinleri > Sevdan Bir Ateş GİRİŞ NAKARAT: G---------------------------------------------------------- D---------------------------------------------------------- A-7-7--------------------------------------5-5------------- E----7-8-7-8-10-10-5-7-5-7-3-2-0-8-3-5-3-5----5-7-5-7-3-2-0 --------------------- 2 DEFA ----------------

Bu konu 1943 kez görüntülendi 0 yorum aldı ...
Düş Sokağı Sakinleri - Sevdan Bir Ateş ( Tab ) 1943 Reviews

    Konuyu değerlendir: Düş Sokağı Sakinleri - Sevdan Bir Ateş ( Tab )

    5 üzerinden | Toplam: 0 kişi oyladı ve 1943 kez incelendi.

  1. #1
    ŞiMaL - ait Kullanıcı Resmi (Avatar)
    Üyelik Tarihi
    10.12.2009
    Mesajlar
    21.656
    Konular
    10831
    Beğendikleri
    0
    Beğenileri
    2
    Tecrübe Puanı
    100
    @ŞiMaL

    Yeni Düş Sokağı Sakinleri - Sevdan Bir Ateş ( Tab )

    Düş Sokağı Sakinleri > Sevdan Bir Ateş

    GİRİŞ NAKARAT:

    G----------------------------------------------------------
    D----------------------------------------------------------
    A-7-7--------------------------------------5-5-------------
    E----7-8-7-8-10-10-5-7-5-7-3-2-0-8-3-5-3-5----5-7-5-7-3-2-0
    --------------------- 2 DEFA ----------------


    G----------------------------------------------------------
    D----------------------------------------------------------
    A--5-----3------------5---3-----3----5---------------------
    E-0---------0------0--------0------5----0------------------
    ----- 4 TANE OLAN KITALARIN HEPSİNDE BÖYLE ÇALINIR --------

    ARA SOLO: KEMAN İLE ÇALINIYOR , İSTEYEN BASLA ÇALABİLİR.
    **BASLA ÇALINCA AYRI BİR TAT VERİYOR.

    ARA SOLO:

    1.BÖLÜM:
    G----------------------------------------------------------
    D----------------------------------------------------------
    A-7-9-10-9-7-------------7--------7-9----------------------
    E------------10-8-7-8-10----10-10----10-8-7-5-7-8----------

    2. BÖLÜM:
    G----------------------------------------------------------
    D----------------------------------------------------------
    A-----------------7-------7-9-9-10-9-7-7-------------------
    E-7-8-10-8-7-8-10---10-10----------------------------------
    ------------------ 2 BÖLÜMDE 2 DEFA ------------------

    NOT: 1. BÖLÜM İLE 2. BÖLÜM ARALARINDA DURAKSIZ ÇALINACAK.


    Konu Bilgileri       Kaynak: www.azeribalasi.com

          Konu: Düş Sokağı Sakinleri - Sevdan Bir Ateş ( Tab )

          Kategori: Müzik ve Müzik Aletleri

          Konuyu Baslatan: ŞiMaL

          Cevaplar: 0

          Görüntüleme: 1943


Etiketler

Yetkileriniz

  • Konu Acma Yetkiniz Yok
  • Cevap Yazma Yetkiniz Yok
  • Eklenti Yükleme Yetkiniz Yok
  • Mesajinizi Degistirme Yetkiniz Yok
  •  

Giriş

Giriş