Kullanıcı Tag Listesi

Disturbed - Want (Tab) Tuning: 1/2 Step Down () - Harmonics b - bend x - muted strings

Bu konu 1013 kez görüntülendi 0 yorum aldı ...
Disturbed - Want (Tab) 1013 Reviews

    Konuyu değerlendir: Disturbed - Want (Tab)

    5 üzerinden | Toplam: 0 kişi oyladı ve 1013 kez incelendi.

  1. #1
    AyMaRaLCaN - ait Kullanıcı Resmi (Avatar)
    Üyelik tarihi
    24.08.08
    Mesajlar
    11.494
    Konular
    5200
    Beğendikleri
    0
    Beğenileri
    14
    Bahsedildi
    0 Mesaj
    Etiketlenmiş
    0 Konu
    Tecrübe Puanı
    100
    @AyMaRaLCaN

    Standart Disturbed - Want (Tab)

    Disturbed - Want (Tab)


    Tuning: 1/2 Step Down
    () - Harmonics
    b - bend
    x - muted strings



    {CHORUS}

    P.M.. P.M.. P.M.. P.M............
    |-------------------------------------|--------------------------------|R
    |-------------------------------------|--------------------------------|E
    |-4---4--------4-----4--------2--4--5-|-4---4--------4-----------------|P
    |-2---2--------2-----2--------0--2--3-|-2---2--------2-----------------|E
    |-2---2--------2-----2--------0--2--3-|-2---2--------2-----------------|A
    |-0------0--0-----------0--0----------|-0------0--0------0-000-0-0-000-|T


    {VERSE}

    Your mind won't let you say that you want me.....

    P.M........ P.M..........
    |---------------------------------------------------|R
    |-------------------(7)--9b-------------------------|E
    |----------------(7)--------------------------7-----|P
    |---------------------------------------------7-----|E
    |----7--7--5--7-----------------5--7--7--5-7--------|A
    |---------------------------------------------------|T x3



    P.M........ P.M..........
    |------------------------------------------------(5)---|
    |-------------------(7)--9b-------------------(5)------|
    |----------------(7)-----------------------------------|
    |---------------------------------------------(7)------|
    |----7--7--5--7-----------------5--7--7--5-7-----------|
    |------------------------------------------------------|
    (After playing this bar go back to the begining of the verse)


    {BRIDGE}


    |---------------------------|----------------------------|
    |---------------------------|----------------------------|
    |---------------(5)-----(5)-|--------------(5)-----(5)---|
    |--3--3---3---------(5)-----|-2--2---2---------(5)-------|
    |--2--2---2-----------------|-2--2---2-------------------|
    |--0--0---0-----------------|-0--0---0-------------------|


    |---------------------------|----------------------------|
    |---------------------------|----------------------------|
    |---------------(5)-----(5)-|---------------(5)----------|
    |--3--3---3---------(5)-----|-2--2---2--X-X--------------|
    |--2--2---2-----------------|-2--2---2--X-X--------------|
    |--0--0---0-----------------|-0--0---0--X-X--------1b----|
    (Play the bridge over a few times)


    {INTERLUDE}

    Savor the addiction, savor the affliction, savor me, savor her mind
    |------------------------------------------------------------------------|
    |---------------------------------------------------------------------3--|
    |--5------------------------------------------------------------------0--|
    |--5------------------------------------------------------2-----1-----0--|
    |--3------2-----------------------------------------------3-----2--------|
    |-----------------3---2-------3---2---0------0---2---3----------------3--|


    P.M.. P.M..
    |-------------------------------------|--------------------------------|R
    |-------------------------------------|--------------------------------|E
    |-4---4--------4-----4--------2--4--5-|--------------------------9*----|P
    |-2---2--------2-----2--------0--2--3-|-2-2---2-2---2-2---2-2----------|E
    |-2---2--------2-----2--------0--2--3-|-2-2---2-2---2-2---2-2----------|A
    |-0------0--0-----------0--0----------|-0-0---0-0---0-0---0-0----------|T
    *w/ Whammy pedal set
    two octaves higher.


    {OUTRO}

    mind won't let you say that you want me Because your
    P.M.. P.M..
    |---------------------------------------|--------------------------------|
    |---------------------------------------|--------------------------------|
    |-4---4--------4-----4--------2--4--5---|--------------------------------|
    |-2---2--------2-----2--------0--2--3---|--------------------------------|
    |-2---2--------2-----2--------0--2--3---|-2-2--2-2--2-2----2-2--X--X--X--|
    |-0------0--0-----------0--0------------|-0-0--0-0--0-0----0-0--X--X--X--|



    mind won't let you say that you want me, to want me. your
    |---------------------------------------------------------------------|R
    |---------------------------------------------------------------------|E
    |--------------------------------------------------2--4--5------------|P
    |-2---2---------------------2---2------------------0--2--3------------|E
    |-2---2---------------------2---2------------------0--2--3------------|A
    |-0---0----0---0---0---0----0---0---0---0---0---0---------------------|T


    What do you want? What do you want?
    |-------------------------------------------|R
    |-------------------------------------------|E
    |-----------------------------------2-4-5---|P
    |-2-2--------------2-2--------------0-2-3---|E
    |-2-2--------------2-2--------------0-2-3---|A
    |-0-0--0--0--0--0--0-0--0--0--0--0----------|T


    Konu Bilgileri       Kaynak: www.azeribalasi.com

          Konu: Disturbed - Want (Tab)

          Kategori: Müzik ve Müzik Aletleri

          Konuyu Baslatan: AyMaRaLCaN

          Cevaplar: 0

          Görüntüleme: 1013

    Sinemde yanar dağlar bahçeler bağlar yetim
    Sensizken canım ağlar bensizken memleketim
    Özüme bir kez dokun gör nasıl birisiyim
    Aşka aşıkken bile memleket delisiyim


Etiketler

Yer imleri

Yer imleri

Yetkileriniz

  • Konu Acma Yetkiniz Yok
  • Cevap Yazma Yetkiniz Yok
  • Eklenti Yükleme Yetkiniz Yok
  • Mesajinizi Degistirme Yetkiniz Yok
  •  

Giriş

Facebook Baglan Giriş