Kullanıcı Tag Listesi

Namus Belası intro(gitar I)(bass) -------------------------------------------------------------------- -------------------------------------------------------------------- -------------------------------------------------------------------- --6---6---6---6---7---9---9---9---9---7---6---6---6---6------------- 7---7---7---7---7---7---7---7---7---7---7---7---7---7--------------- -------------------------------------------------------------------- yukarıdaki ilk girişte tek başına daha sonra

Bu konu 966 kez görüntülendi 0 yorum aldı ...
Kurban - Namus Belası 966 Reviews

    Konuyu değerlendir: Kurban - Namus Belası

    5 üzerinden | Toplam: 0 kişi oyladı ve 966 kez incelendi.

  1. #1
    ŞiMaL - ait Kullanıcı Resmi (Avatar)
    Üyelik tarihi
    10.12.09
    Mesajlar
    22.194
    Konular
    11199
    Beğendikleri
    0
    Beğenileri
    8
    Bahsedildi
    0 Mesaj
    Etiketlenmiş
    0 Konu
    Tecrübe Puanı
    100
    @ŞiMaL

    Yeni Kurban - Namus Belası

    Namus Belası intro(gitar I)(bass)
    --------------------------------------------------------------------
    --------------------------------------------------------------------
    --------------------------------------------------------------------
    --6---6---6---6---7---9---9---9---9---7---6---6---6---6-------------
    7---7---7---7---7---7---7---7---7---7---7---7---7---7---------------
    --------------------------------------------------------------------
    yukarıdaki ilk girişte tek başına daha sonra aşağıdakiyle beraber...

    ilk başta....sonra bu taraf yapılır ve bu tarafla beraber aşağıdaki....
    -----------------I-----------------------------
    -----------------I-----------------------------
    -----------------I-----------5-5---------------
    -2-2-2-2-2-2-2-2-I-7-7--6-6--5-5--5-2-2--------
    -2-2-2-2-2-2-2-2-I-7-7--6-6--3-3--5-2-2--------
    -0-0-0-0-0-0-0-0-I-5-5--4-4-------3-0-0--------

    gitar II
    ----------------------------------------
    ----------------------------------------
    -------------------5-5-5-5--------------
    -6h7-7-7-7-6-6-6-6---------6--2-2-------
    ----------------------------------------
    ----------------------------------------

    gitar I
    ------------------------I------------------------------I------------------I
    ------------------------I------------------------------I------------------I
    ----------4-4----2-2----I-2-2----------4-4-------------I-4-4----2-2-------I
    -2-2------4-4----2-2----I-2-2---2-2----4-4----2-2------I-4-4----2-2---2-2-I
    -2-2------2-2----0-0----I-0-0---2-2----2-2----2-2------I-2-2----0-0---2-2-I
    -0-0--------------------I-------0-0-----------0-0------I--------------0-0-I
    düştüm....öğüt..bol olur..toplasan.....burdan..yol olur..ana ...zor ...el...

    ---------------------------------------I
    ---------------------------------------I
    -2-2------------4-4--------------------I
    -2-2----2-2-----4-4-----2-2------------I
    -0-0----2-2-----2-2-----2-2------------I
    --------0-0-------------0-0------------I
    namus...kardaş..döktüğümüz kan bizim...

    gitarII(üstteki sözlerden sonra) 2X
    ---------------------------------------------------------------
    -6-10-10-10-10-10-10-10-10-10-11-13--11-13-13-13-11-11p10------
    ---------------------------------------------------------------
    ---------------------------------------------------------------
    ---------------------------------------------------------------
    ---------------------------------------------------------------
    bundan sonra tekrar sözler ve sonra alttaki aynen...
    gitar II 2X
    -------------------------------
    -------------------------------
    -2-2-2-2--2h3-5--7^-5-5-3-3-2--
    -------------------------------
    -------------------------------
    -------------------------------
    gitarI 4X
    ---------------------------
    ---------------------------
    -9-9--5-5--9-9-------------
    -9-9--5-5--9-9-------------
    -7-7--3-3--7-7-------------
    ---------------------------


    Konu Bilgileri       Kaynak: www.azeribalasi.com

          Konu: Kurban - Namus Belası

          Kategori: Müzik ve Müzik Aletleri

          Konuyu Baslatan: ŞiMaL

          Cevaplar: 0

          Görüntüleme: 966


Etiketler

Yer imleri

Yer imleri

Yetkileriniz

  • Konu Acma Yetkiniz Yok
  • Cevap Yazma Yetkiniz Yok
  • Eklenti Yükleme Yetkiniz Yok
  • Mesajinizi Degistirme Yetkiniz Yok
  •  

Giriş

Facebook Baglan Giriş