Kullanıcı Tag Listesi

intro A5 C5 E5 G5 e|------------------------| (şarkı tek gitarla baslıyo B|------------------------| sonra aynı riff iki gitar farklı G|-------555--------------| tonlarda çalıyor.) D|--77---555--22---3333---| A|--77---333--22---3333---| E|--55--------00---5555---|

Bu konu 842 kez görüntülendi 0 yorum aldı ...
Duman - Belki Alışman Lazım ( Tab ) 842 Reviews

    Konuyu değerlendir: Duman - Belki Alışman Lazım ( Tab )

    5 üzerinden | Toplam: 0 kişi oyladı ve 842 kez incelendi.

  1. #1
    ŞiMaL - ait Kullanıcı Resmi (Avatar)
    Üyelik tarihi
    10.12.09
    Mesajlar
    22.194
    Konular
    11199
    Beğendikleri
    0
    Beğenileri
    8
    Bahsedildi
    0 Mesaj
    Etiketlenmiş
    0 Konu
    Tecrübe Puanı
    100
    @ŞiMaL

    Yeni Duman - Belki Alışman Lazım ( Tab )

    intro
    A5 C5 E5 G5
    e|------------------------| (şarkı tek gitarla baslıyo
    B|------------------------| sonra aynı riff iki gitar farklı
    G|-------555--------------| tonlarda çalıyor.)
    D|--77---555--22---3333---|
    A|--77---333--22---3333---|
    E|--55--------00---5555---|


    sarkının dörtlükleri bu riff ile beraber çalınıyor.
    nakarat bölümü şöle arkadaslar

    solo öncesi akorlar
    C5 G5 Am A5 C5 D5 D#5
    e|-----------------------------------------|-----------------------------|
    B|-----------------------------------------|-----------------------------|
    G|----5---5--5-----------------------------|-------5---7---8-------------|
    D|----5---5--5----5-5-5-----7-7-7----------|---7---5---7---8-------------|
    A|----3---3--3----5-5-5-----7-7-7----------|---7-------------------------|
    E|----------------3-3-3-----5-5-5----------|-----------------------------|

    solaya baslamadan önce ki akorlarda aşagıda ama
    burda dikkat edilmesi gereken nokta akorlar ilk seferinde birer
    kere... ikincide ikişer kere... üçüncüde üçerkere şarkıyı
    dinleyince ne demek istediğimi anlarsınız çalınıyor.

    solo
    tam oldu denemez ama belki size bi fikir verir. vuruslar arasında
    hammer on kullanabilirsiniz.
    e|-----------------------------------------------------------------------|
    B|-----------8-7-8----7-5-7-5--------------------------------------------|
    G|-----/9-9-----------------7-5-7---5-4-5----4-2-4-2---------------------|
    D|-----------------------------------------------------------------------|
    A|-----------------------------------------------------------------------|
    E|-----------------------------------------------------------------------|

    solo aynı aşagı yukarı aynı şekilde bi tekrar daha yapıyo ama
    dediğim gibi aşağı yukarı yani orasından pekte emin dilim
    ben karambol bişeyler çalıyorum. çıkarrınca eklerim
    .....

    solodan sonra ana akorlar bir kere ile Palm mute çalınıyor.
    daha sonra normale dönüyor. işte şarkı bukadar.


    Konu Bilgileri       Kaynak: www.azeribalasi.com

          Konu: Duman - Belki Alışman Lazım ( Tab )

          Kategori: Müzik ve Müzik Aletleri

          Konuyu Baslatan: ŞiMaL

          Cevaplar: 0

          Görüntüleme: 842


Etiketler

Yer imleri

Yer imleri

Yetkileriniz

  • Konu Acma Yetkiniz Yok
  • Cevap Yazma Yetkiniz Yok
  • Eklenti Yükleme Yetkiniz Yok
  • Mesajinizi Degistirme Yetkiniz Yok
  •  

Giriş

Facebook Baglan Giriş